Give Kudos?
Are you sure you want to give kudos to EMRLDEYZS?

Add To Songbook?
Are you sure you want to add this song to your songbook?


3,420 bands | 16,457 songs
Search: Register FREE! | Login
Browse Songs:
Browse Bands:
Tool Panel
Discuss This Song

1 2 3 4 5



3 Doors Down - Landing In London (Chord)
Album: Seventeen Days (2005)
Submitter: EMRLDEYZS (89) on 1/15/06 1 comment
Month Views: 15 | Total Views: 8,190
Moderator: EMRLDEYZS | Report This Song?
Song Tools

Comment

Songbook

Kudos

Show Chords

Print

Tabbed by: Emrldeyzs

INTRO:Em(addb6) RIFF A

E|------------------------------|----------------------------------|---------------------------|
B|------------------------------|----------------------------------|---------------------------|
G|-------5-------4--------2h4---|---------5-------4--------2--2h4--|-------5-----4-----2h4-----|
D|-----2---2--------2----------5|-------2---2--------2-------------|-----2---2-----2-------5---|
A|---2--------2--------2--------|----2---------2--------2----------|---2-------2-----2---------|
E|-0----------------------------|--0-------------------------------|-0-------------------------|

VERSE:

Em                     G
  I woke up today in London 
Asus2                       Em
  As the plane was touching down 
                                   G
  And all I could think about was monday 
Asus2                   Em
  And maybe I'll be back around 
 
                              C   Cmaj7   C6
  If this keeps me away much longer 
Dsus2     D        Dsus4   Em
  I dont know what I will do 
                                  C         Cmaj7 C6
  You've got to understand it's a hard life 
Dsus2  D        Dsus4  Em
       That I'm going through 
 
CHORUS:
                              C
  And when the night falls in around me 
Am                          Em
  I dont think I'll make it through 
                                   C
  I'll use your light to guide the way 
D                            Em(addb6) (RIFF A)
  'Cause all I think about is you 

VERSE:
 
Em                           G
  Well L.A. is getting kinda crazy 
Asus2                           Em
  And New york is getting kinda cold 
                             G
  I keep my head from geting lazy 
Asus2                          Em
  I just cant wait to get back home 
 
CHORUS:
                              C
  And all these days I spend away 
Am                         Em
  I'll make up for this I swear 
                           C
  I need your love to hold me up 
D                           Em
  When it's all too much to bear  
 
                              C
  And when the night falls in around me 
Am                          Em
  I dont think I'll make it through 
                                   C
  I'll use your light to guide the way 
D                            Em
  'Cause all I think about is you
 
BREAK: C Am Em  C D Em  

 CHORUS:
                              C
  And all these days I spend away 
Am                        Em
  I'll make up for this I swear 
                           C
  I need your love to hold me up 
D                           Em
  When it's all too much to bear 
 
 
                              C
  And when the night falls in around me 
Am                          Em
  I dont think I'll make it through 
                               C
  I'll use your light to guide the way 
D                             Em(addb6)
  Cause all I think about is you

OUTRO:

E|--------------------------------|------------------------------------|
B|--------------------------------|------------------------------------|
G|--------5--------4--------2h4---|----------5--------4--------2--2h4--|
D|------2----2--------2----------5|--------2---2---------2-------------|
A|----2---------2--------2--------|-----2---------2---------2----------|
E|-0------------------------------|--0---------------------------------|


E|--------------------------------|-------------------0--*||
B|--------------------------------|-------------------0--*||
G|--------5------4--------2h4-----|----------0--------0--*||
D|------2----2------2----------5--|-------2-----2-----2--*||
A|----2--------2-------2----------|----2-----------2--2--*||
E|-0------------------------------|-0-----------------0--*||
 
 Comments (click here to add a non-facebook comment)
this tab is perfect as far as i can tell, well done.
if anyone could tab the solo for this song, i'd be
really greatful. i'm having trouble figuring it out,
thanks. -Johnny
-PeaveyPredator | 2/4/2006
Home | FAQs | Privacy | Terms | Contact
Top 100 Tab Sites