Give Kudos?
Are you sure you want to give kudos to xIeatcatbrainsx?

Add To Songbook?
Are you sure you want to add this song to your songbook?


3,423 bands | 16,458 songs
Search: Register FREE! | Login
Browse Songs:
Browse Bands:
Tool Panel
Discuss This Song

1 2 3 4 5



3 Doors Down - Kryptonite (Tab)
Album: A Better Life (2000)
Submitter: xIeatcatbrainsx (0) on 2/28/05
Month Views: 11 | Total Views: 3,972
Moderator: EMRLDEYZS | Report This Song?
Song Tools

Comment

Songbook

Kudos

Show Chords

Print

Tabbed by me thank you. shoot me if there are any bad mistakes. I tried.

Key
* = abruptly mute note by releasing pressure on strings without lifting fingers
x = hold fingers across strings to produce "scratching" or muted scraping noise

Intro A (clean)
    Bm         G            A2                             
e------------------------------------|
b--------3-----------------------0---|
g------4---4---0--------0------2-----|
d----4-------4--------0------2-------|
a--2----------------2------0---------|
E-----------------3------------------|

Intro B (clean)
    Bm         G            A2                             
e----------------------------0-------|
b--------3---------------------2-----|
g------4---4---0--------0--------2---|
d----4-------4--------0--------------|
a--2----------------2------0---------|
E-----------------3------------------|

Middle A (clean)
   Bm              G   A2
e--2-2-x-x-2-2-x-x-3-3-x-x-0-0--|
b--3-3-x-x-3-3-x-x-3-3-x-x-0-0--|
g--4-4-x-x-4-4-x-x-0-0-x-x-2-2--|
d--4-4-x-x-4-4-x-x-0-0-x-x-2-2--|
a--2-2-x-x-2-2-x-x-2-2-x-x-0-0--|
E--2-2-x-x-2-2-x-x-3-3-x-x-0-0--|

Chorus (distortion)
e----------------------------------------------------------|
b----------------------------------------------------------|
g--4-4-4--4-4-4--4-4-4--4-4-4----------------2-2-2--2-2-2--|
d--4-4-4--4-4-4--4-4-4--4-4-4--5-5-5--5-5-5--2-2-2--2-2-2--|
a--2-2-2--2-2-2--2-2-2--2-2-2--5-5-5--5-5-5--0-0-0--0-0-0--|
E------------------------------3-3-3--3-3-3----------------|

e----------------------------------------------------------|
b----------------------------------------------------------|
g--4-4-4--4-4-4--4-4-4--4-4-4------------------------------|
d--4-4-4--4-4-4--4-4-4--4-4-4--2-2-2--2-2-2--4-4-4--4-4-4--|
a--2-2-2--2-2-2--2-2-2--2-2-2--2-2-2--2-2-2--4-4-4--4-4-4--|
E------------------------------0-0-0--0-0-0--2-2-2--2-2-2--|

play Intro A

Solo (distorted)
e---------------------------------------------------------------|
b---------------------------------------------------------------|
g---------------------------------------------------------------|
d--------------2------------------------------------------------|
a--2-4-5-4-5-4---5-4-5-4-5-2-0-2-0-2-0--------------------------|
E--------------------------------------0-0-0-0-0-0-2-2-2-2-2-2--|

Middle B (clean)
   Bm             G        A
e--------2------------3--------0----|
b----------3---3--------3--------2--|
g------4-----4---------------2------|
d----4---------------------2--------|
a--2----------------2---------------|
E-----------------3-----------------|

Play solo for outro (distorted) end on :
e---------|
b---------|
g--4*--4--|
d--4*--4--|
a--2*--2--|
E---------|
 Comments (click here to add a non-facebook comment)
Home | FAQs | Privacy | Terms | Contact
Top 100 Tab Sites