Give Kudos?
Are you sure you want to give kudos to texasisalive?

Add To Songbook?
Are you sure you want to add this song to your songbook?


3,420 bands | 16,457 songs
Search: Register FREE! | Login
Browse Songs:
Browse Bands:
Tool Panel
Discuss This Song

1 2 3 4 5



3 Doors Down - Kryptonite (Bass)
Album: A Better Life (2000)
Submitter: texasisalive (5) on 10/2/03
Month Views: 13 | Total Views: 2,600
Moderator: EMRLDEYZS | Report This Song?
Song Tools

Comment

Songbook

Kudos

Show Chords

Print

3 Doors Down
Kryptonite


Intro

G|--------------|--------------|--------------|--------------|
D|--------------|--------------|--------------|--------------|
A|--2:----------|--2:----------|--2:----------|--2:----------|
E|------3:--5:--|------3:--5:--|------3:--5:--|------3:--5:--|

Verse 1 (when he starts singing)

G|--------------|--------------|--------------|--------------|
D|--------------|--------------|--------------|--------------|
A|--2:----------|--2:----------|--2:----------|--2:----------|
E|------3:--5:--|------3:--5:--|------3:--5:--|------3:--5:--|

Verse 2 (when it starts to get heavy)

G|--------------------------|--------------|
D|--------------------------|--------------|
A|--/2-2-22-2-2-2-----------|--2:----------|
E|---------------0/3:-0/5:--|-----3:---5:--|

(When he starts singing)

G|--------------|--------------|--------------|--------------|
D|--------------|--------------|--------------|--------------|
A|--2:----------|--2:----------|--2:----------|--2:----------|
E|------3:--5:--|------3:--5:--|------3:--5:--|------3:--5:--|

Chorus 1

G|---------------------------------------|
D|---------------------------------------|
A|-2-22-2-22-2-22-2-22-------------------|
E|---------------------3-333333-5-555555-|

G|-------------------------------------|
D|-------------------------------------|
A|-2-22-2-22-2-22-2-22-----------------|
E|---------------------0000000-2222222-|

G|---------------------------------------|
D|---------------------------------------|
A|-2-22-2-22-2-22-2-22-------------------|
E|---------------------3-333333-5-555555-|

G|-------------------------------------|
D|-------------------------------------|
A|-2-22-2-22-2-22-2-22-----------------|
E|---------------------0000000-2222222-|

Verse 3

G|--------------------------|--------------------------|
D|--------------------------|--------------------------|
A|--/2-2-22-2-2-2-----------|--/2-2-22-2-2-2-----------|
E|---------------0/3:-0/5:--|---------------0/3:-0/5:--|

G|--------------|--------------|--------------|--------------|
D|--------------|--------------|--------------|--------------|
A|--2:----------|--2:----------|--2:----------|--2:----------|
E|------3:--5:--|------3:--5:--|------3:--5:--|------3:--5:--|

Chorus 2

G|---------------------------------------|
D|---------------------------------------|
A|-2-22-2-22-2-22-2-22-------------------|
E|---------------------3-333333-5-555555-|

G|-------------------------------------|
D|-------------------------------------|
A|-2-22-2-22-2-22-2-22-----------------|
E|---------------------0000000-2222222-|

G|---------------------------------------|
D|---------------------------------------|
A|-2-22-2-22-2-22-2-22-------------------|
E|---------------------3-333333-5-555555-|

G|-------------------------------------|
D|-------------------------------------|
A|-2-22-2-22-2-22-2-22-----------------|
E|---------------------0000000-2222222-|

Solo

   Bm   G   A      Bm     E      F#
G|--------------|----------------------|
D|--------------|----------------------|
A|--2:----------|--2:------------------|
E|------3:--5:--|------0000000-2222222-|

   Bm   G   A      Bm     E      F#
G|--------------|----------------------|
D|--------------|----------------------|
A|--2:----------|--2:------------------|
E|------3:--5:--|------0000000-2222222-|



Outro for solo

G|--------------|--------------|
D|--------------|--------------|
A|--2:----------|--2:----------|
E|------5:--3:--|------5:--3:--|

Slow Chorus

G|--------------|--------------|--------------|----------------|
D|--------------|--------------|--------------|----------------|
A|--2:----------|--2:----------|--2:----------|--2:------------|
E|------3:--5:--|------0:--2:--|------3:--5:--|-----0:-2222222-|

Final Chorus

G|---------------------------------------|
D|---------------------------------------|
A|-2-22-2-22-2-22-2-22-------------------|
E|---------------------3-333333-5-555555-|

G|-------------------------------------|
D|-------------------------------------|
A|-2-22-2-22-2-22-2-22-----------------|
E|---------------------0000000-2222222-|

G|---------------------------------------|
D|---------------------------------------|
A|-2-22-2-22-2-22-2-22-------------------|
E|---------------------3-333333-5-555555-|

G|-------------------------------------|
D|-------------------------------------|
A|-2-22-2-22-2-22-2-22-----------------|
E|---------------------0000000-2222222-|

Final Solo

   Bm   G   A      Bm     E      F#
G|--------------|----------------------|
D|--------------|----------------------|
A|--2:----------|--2:------------------|
E|------3:--5:--|------0000000-2222222-|

   Bm   G   A      Bm     E      F#
G|--------------|----------------------|
D|--------------|----------------------|
A|--2:----------|--2:------------------|
E|------3:--5:--|------0000000-2222222-|

 Comments (click here to add a non-facebook comment)
Home | FAQs | Privacy | Terms | Contact
Top 100 Tab Sites