Give Kudos?
Are you sure you want to give kudos to yinielin?

Add To Songbook?
Are you sure you want to add this song to your songbook?


3,430 bands | 16,491 songs
Search: Register FREE! | Login
Browse Songs:
Browse Bands:
Tool Panel
Discuss This Song

1 2 3 4 5



38 Special - Hold On Loosely (Intro)
Submitter: yinielin (3) on 6/19/04
Month Views: 13 | Total Views: 3,076
Moderator: Txulu | Report This Song?
Song Tools

Comment

Songbook

Kudos

Show Chords

Print

By: Yinielin 
38 Special, Hold on Loosely



E-------------------------------------
B-------------------------------------
G-------------------------------------
D-7-7-9-9x-9x-9x-9x-9--9-9x-9x-9x-9x-9
A-4-5-7-7x-7x-7x-7x-7--6-6x-6x-6x-6x-6
E-------------------------------------

E------------------------------------
B------------------------------------
G------------------------------------
D-7-7x-7x-7x-7x-7--7-7x-7x-7x-7x-----
A-5-5x-5x-5x-5x-5--4-4x-4x-4x-4x-----
E------------------------------------

E----------------------------------------
B----------------------------------------
G----------------------------------------
D-7-7-9/-9x-9x-9x-9x-9--9/-9x-9x-9x-9x-9-
A-4-5-7/-7x-7x-7x-7x-7--6/-6x-6x-6x-6x-6-
E----------------------------------------

E-----------------------------------------
B-----------------------------------------
G-----------------------------------------
D-7/-7x-7x-7x-7x-7--7/-7x-7x-7x-7x-7-7-9--
A-5/-5x-5x-5x-5x-5--4/-4x-4x-4x-4x-4-5-7--
E-----------------------------------------
 Comments (click here to add a non-facebook comment)
Home | FAQs | Privacy | Terms | Contact
Top 100 Tab Sites