Give Kudos?
Are you sure you want to give kudos to aussief?

Add To Songbook?
Are you sure you want to add this song to your songbook?


3,420 bands | 16,455 songs
Search: Register FREE! | Login
Browse Songs:
Browse Bands:
Tool Panel
Discuss This Song

1 2 3 4 5



The Doors - Cars Hiss By My Window (Tab)
Submitter: aussief (75) on 10/23/16 1 comment
Month Views: 33 | Total Views: 1,432
Moderator: bigrig1999 | Report This Song?
Song Tools

Comment

Songbook

Kudos

Show Chords

Print

Words Jim Morrison, Music The Doors
                 E
E|-------------|-------------------------|-------------------------|
B|-------------|------2------------------|------2------------------|
G|-------------|------2-0----------------|------2-0----------------|
D|---0-h-1-h-2-|---------------0-h-1-h-2-|---------------0-h-1-h-2-|
A|-2-----------|---2--------2------------|---2--------2------------|
E|-------------|-0-0---------------------|-0-0---------------------|

    E
E|------------------------|--------------|
B|------2-----------------|-------2------|
G|------2-0---------------|-------2-0----|
D|--------------0-h-1-h-2-|--------------|
A|------------2-----------|--------------|
E|-0-0--------------------|-0-0----------|

    A7
The cars hiss by my window 
  A7                               E (INTRO RIFF)
 Like the waves down on the beach 
      A7
 The cars hiss by my window 
 A7                                E (INTRO RIFF)
 Like the waves down on the beach 
    B7
 I got this girl beside me
          A7               E (INTRO RIFF) 
 But she's out of reach 

  E
 Headlight through my window
                    E 
 Shinin' on the wall
  A7 
 Headlight through my window 
                    E
 Shinin' on the wall
  B7 
 Can't hear my baby
  A7 
 Though I call and call

 (REPEAT INTRO) 

 Yeah, right 
 Woo! 
  A7
 Windows started tremblin'
                   E 
 With a sonic boom 
  A7
 Windows started tremblin'
                         E 
 With a sonic boom, boom
    B7 
 A cold girl'll kill you
 A7 
 In a darkened room 
 E
 Yeah, woo 
 Ride 
 Ride on 

  (Jim Morrison does some vocals here trying to imitate lead guitar and harmonica)
 Weooooo! 
 Wawa, eooo! 
 Oooo, owa, owaaa! 
 Wa, waaaaea! 
 Ooo, wa, wa, wa, wa, waa! 
 Uh-huh 

An F. K. Tab,,,Enjoy!!!!!!
 Comments (click here to add a non-facebook comment)
New to me. Nice job!!! KK.
-kraziekhat | 10/23/2016
Home | FAQs | Privacy | Terms | Contact
Top 100 Tab Sites