Give Kudos?
Are you sure you want to give kudos to aussief?

Add To Songbook?
Are you sure you want to add this song to your songbook?


3,420 bands | 16,455 songs
Search: Register FREE! | Login
Browse Songs:
Browse Bands:
Tool Panel
Discuss This Song

1 2 3 4 5



Pink Floyd - Money (Tab)
Submitter: aussief (74) on 8/16/14 1 comment
Month Views: 15 | Total Views: 1,557
Help! We need a moderator for this artist. | Report This Song?
Song Tools

Comment

Songbook

Kudos

Show Chords

Print

Words and Music by Roger Waters

   Bm7
E|-----------------------|----------------------|-----------------------|
B|---4-------------------|---4------------------|-----------------------|
G|---4-------------------|---4------------------|---4-------------------|
D|------4----------------|-----4----------------|------4----------------|
A|-2------2--------2--5b-|-2------2-------2--5b-|-2------2--------2--5b-|
E|----------2--5b--------|----------2--5b-------|-----------2--5b-------|


E|-----------------------|
B|-----------------------|
G|---4-------------------|   5b= bend note
D|------4----------------|
A|-2------2--------2--5b-|
E|----------2--5b--------|

Bm7
Money, get away 
Bm7
Get a good job with more pay and you're okay
Bm7 
Money, it's a gas
Bm7
Grab that cash with both hands and make a stash
F#m
New car, caviar, four star daydream 
Em                            Bm7
Think I'll buy me a football team

(REPEAT INTRO)

Bm7
Money, get back
Bm7
I'm all right Jack keep your hands off of my stack
Bm7
Money, it's a hit 
Bm7
Don't give me that do goody good bulls**t
           F#m                                 Em
I'm in the high-fidelity first class traveling set
                     Bm7 
And I think I need a Lear jet

(PLAY INTRO)

Bm7
Money, it's a crime 
Bm7
Share it fairly but don't take a slice of my pie
Bm7
Money, so they say 
Bm7
Is the root of all evil today
       F#m                             Em
But if you ask for a raise it's no surprise
                          Bm7
That they're giving none away
Bm7
Away, away, way
Bm7
Away, away, away

An F. K. Tab,,,,Enjoy!!!!!!!
 Comments (click here to add a non-facebook comment)
Great job!!! KK.
-kraziekhat | 8/17/2014
Home | FAQs | Privacy | Terms | Contact
Top 100 Tab Sites