Give Kudos?
Are you sure you want to give kudos to microsysinc?

Add To Songbook?
Are you sure you want to add this song to your songbook?


3,395 bands | 16,287 songs
Search: Register FREE! | Login
Browse Songs:
Browse Bands:
Tool Panel
Discuss This Song

1 2 3 4 5





Jim Croce - I'll Have To Say I Love You In A Song (Solo)
Submitter: microsysinc (27) on 12/30/10 2 comments
Month Views: 16 | Total Views: 3,301
Moderator: scadet | Report This Song?
Song Tools

Comment

Songbook

Kudos

Show Chords

Print

I’ll Have To Say I Love You In A Song  -  Jim Croce and Maury Muehleisen
    (Instrumental Solos  at  01:12)

Video:  CD  http://www.youtube.com/watch?v=RabAcvizwKY

*** tabbed for two Acoustic guitars and matches Korry’s tab in Amaj7 ***
    (guitar 2 riff is used throughout the song) 

       (guitar 1)                 (guitar 2)                   (guitar 1)  
   A B  B C#~ E C#E F# E~~   B  D C#B A B C#B    A B     A D C#B A  B C#B~~  A B~~
e-------------------------|--7-10/9-7-5-7/9-7~~--5h7--|---------------------------|
B-------------5---5-7--5~~|---------------------------|---------------------------|
G--2-4--4/6~~---6---------|---------------------------|----7-6-4-2--4/6-4~~--2h4~~|
D-------------------------|---------------------------|--7------------------------|
A-------------------------|---------------------------|---------------------------|
E-------------------------|---------------------------|---------------------------|
        (guitar 1)                (guitar 2)                   (guitar 1)
   A B  B C#~E A  B  B C#~   B  D C#B A B C#B    A B     D C# B A Ab F#E C#B  [D]
e--------------5--7--7/9~~|--7-10/9-7-5-7/9-7~~--5h7--|--10-9-7----------------2--|
B------------5------------|---------------------------|---------10-9-7-5-2-0---3--|
G--2-4--4/6~~-------------|---------------------------|------------------------2--|
D-------------------------|---------------------------|------------------------0--|
A-------------------------|---------------------------|---------------------------|
E-------------------------|---------------------------|---------------------------|

  Legend
~  ring
h  hammer
/  slide up
\  slide down
[] chord
 Comments (click here to add a non-facebook comment)
Great song,, Great Tab as usual!!!!!
-aussief | 12/30/2010
Nice job. KK.
-kraziekhat | 12/31/2010
Home | FAQs | Privacy | Terms | Contact
Top 100 Tab Sites