Give Kudos?
Are you sure you want to give kudos to Ace138?

Add To Songbook?
Are you sure you want to add this song to your songbook?


3,420 bands | 16,457 songs
Search: Register FREE! | Login
Browse Songs:
Browse Bands:
Tool Panel
Discuss This Song

1 2 3 4 5



3 Doors Down - Here Without You (Chord)
Submitter: Ace138 (1) on 4/14/09
Month Views: 8 | Total Views: 3,112
Moderator: EMRLDEYZS | Report This Song?
Song Tools

Comment

Songbook

Kudos

Show Chords

Print

Here without you
Riff 1
e|------------------------------------------------------------------|
B|-------2-----1-----1---2--------------3---------------1-----------|
G|-----3---3-----3-----3---3----------4---4---------1-----1---------|
D|---3-------3-----3---------3------4-------4-----1---1-----1-------|
A|-1---------------------------1--2------------3--------------------|
E|---------------------------------------------4--------------------|

Riff 2
e|------------------------------------------------------------------|
B|-------2-----1-----1---2--------------1-----2-----1-----2h4-------|
G|-----4---3-----3-----3---3----------1----1-----1-----1------------|
D|---3-------3-----3---------3------1-------------------------------|
A|-1---------------------------1------------------------------------|
E|--------------------------------4---------------------------------|

 	 C 	 G 	 Am 	 F
e|------3-------3-------0-------1---|
B|------3-------3-------1-------1---|
G|------5-------4-------2-------2---|
D|------5-------5-------2-------3---|
A|------3-------5-------0-------3---|
E|------3-------3---------------1---|


Chorus:

C                          G                      
I'm here without you baby, but your still on my lonely mind
Am                      F 	  	  G
I think about you baby, and I dream about you all the time
C                           G                                  Am
I'm here without you baby, but your still with me in my dreams
 F           G                 
And tonight it's only you and me


Bridge:

Am                  C
Everything I know, and anywhere I go 
G                         F
it gets hard but it won't take away my love
Am                           C
And when the last one falls, when it's all said and done
G                 F                                 C    G Am   F   G
it get hard but it won't take away my love


Chorus:

C                          G                      
I'm here without you baby, but your still on my lonely mind
Am                      F 	  	  G
I think about you baby, and I dream about you all the time
C                           G                                  Am
I'm here without you baby, but your still with me in my dreams
 F           G                 C     G   Am F  G
And tonight it's only you and me 
 Comments (click here to add a non-facebook comment)
Home | FAQs | Privacy | Terms | Contact
Top 100 Tab Sites