Give Kudos?
Are you sure you want to give kudos to EMRLDEYZS?

Add To Songbook?
Are you sure you want to add this song to your songbook?


3,420 bands | 16,457 songs
Search: Register FREE! | Login
Browse Songs:
Browse Bands:
Tool Panel
Discuss This Song

1 2 3 4 5



3 Doors Down - Here By Me (Tab)
Album: Seventeen Days (2005)
Submitter: EMRLDEYZS (95) on 10/4/06
Month Views: 10 | Total Views: 2,209
Moderator: EMRLDEYZS | Report This Song?
Song Tools

Comment

Songbook

Kudos

Show Chords

Print

INTRO:  

GTR 1

  G              Cmaj7           G              Cmaj7
|------------------------------|------------------------------||
|-0-----0--------0-----0-------|-0-----0--------0-----0-------||
|---0-----0--------0-----0-----|---0-----0--------0-----0-----||
|-----0-----0--------2-----2---|-----0-----0--------2-----2---||
|-------------0--3-------------|-------------0--3-------------||
|-3--------------------------0-|-3--------------------------0-||

VERSE:

   G              Cmaj7           G              Cmaj7
|------------------------------|------------------------------|
|-0-----0--------0-----0-------|-0-----0--------0-----0-------|
|---0-----0--------0-----0-----|---0-----0--------0-----0-----|
|-----0-----0--------2-----2---|-----0-----0--------2-----2---|
|-------------0--3-------------|-------------0--3-------------|
|-3--------------------------0-|-3--------------------------0-|
I hope youre doing fine out there without me             'Cause  

    

 Amadd9                        Cmaj7
GTR 2 clean                                               1/2
|--------------------------------------|-------------------------------------| 
|--------------------------------------|-------------------------------------|
|--------------------------------------|---------0-----0-2b---(2)-0---0------|
|--------------------------------------|----0--2-----2--------------2---2-0--|
|--------------------------------------|-------------------------------------|
|--------------------------------------|-------------------------------------|
|GTR1 acous
|--------------------------------------|-------------------------------------| 
|--0------0h1---------0------0h1-------|-0-------0h1--------0-------0h1------|
|-------2------2---------2-------2-----|----0--------0---------0--------0----|
|-----2----------2---------2-------2---|-------2-------2----------2-------2--|
|--0---------------0--0--------------0-|-3---------------3--3----------------|
|--------------------------------------|------------------------------------0|
   I'm not doing so good without you                                       The

   G                 Cmaj7                   G              Cmaj7
|-------------------------------------|-------------------------------------| 
|-------------------------------------|-------------------------------------|
|-------------------------------------|-------------------------------------|
|-(0)---------------------------------|-------------------------------------|
|-------------------------------------|-------------------------------------|
|-------------------------------------|-------------------------------------|
|
|-------------------------------------|-------------------------------------|
|-0------0-----------0------0---------|-0------0-----------0------0---------|
|----0-------0----------0-------0-----|----0-------0----------0-------0-----|
|------0--------0---------2-------2---|------0--------0---------2-------2---|
|-----------------0--3----------------|-----------------0--3----------------|
|-3---------------------------------0-|-3---------------------------------0-|
things I thought you'd never know about me                            Were the

    Amadd9                                Cmaj7
GTR 1&3
|--------------------------------------|--------------------------------------| 
|--0------0h1---------0------0h1-------|-0-------0h1--------0-------0h1-------|
|----2---------2---------2-------2-----|----0--------0---------0--------0-----|
|------2---------2---------2-------2---|-------2-------2----------2-------2---|
|--0---------------0--0--------------0-|-3---------------3--3---------------0-|
|--------------------------------------|--------------------------------------|
  things I guess you always understood                                    So


PRE-CHORUS:
 
 Amadd9                                  Cmaj9
|--------7------8----------7------8-----|-------7-----10-----------7------8-----| 
|-----8----8------8------8---8------8---|----8----8------8------8-----8-----8---|
|--9---------9------9-9--------9------9-|-9---------9------9-9----------9-----9-|
|---------------------------------------|---------------------------------------|
|---------------------------------------|---------------------------------------|
|---------------------------------------|---------------------------------------|
|
|---------------------------------------|---------------------------------------| 
|--0------0h1---------0------0h1--------|-0-------0h1---------0-------0h1-------|
|----2---------2---------2-------2------|----0---------0---------0--------0-----|
|-------2--------2---------2-------2----|-------2--------2----------2-------2---|
|--0---------------0--0--------------0--|-3----------------3--3---------------0-|
|---------------------------------------|---------------------------------------|
 how could I have been so blind for all these years                           I

 Amadd9                                  Cmaj9
|--------7------8----------7------8-----|-------7-----10------------7------10------| 
|-----8----8------8------8---8------8---|----8----8------8-------8----8--------8---|
|--9---------9------9-9--------9------9-|-9---------9------9--9----------9-------9-|
|---------------------------------------|------------------------------------------|
|---------------------------------------|------------------------------------------|
|---------------------------------------|------------------------------------------|
|
|---------------------------------------|----------------------------------------0-| 
|--0------0h1---------0------0h1--------|-0-------0h1---------0-------3------------|
|----2---------2---------2-------2------|----0---------0---------0-------0-----1---|
|-------2--------2---------2-------2----|-------2--------2----------2-------2------|
|--0---------------0--0--------------0--|-3----------------3--3--------------------|
|---------------------------------------|------------------------------------------|
  guess I only see the truth through all this fear   and living without you       And  


CHORUS:

    G             G/B                       C        G/B       Amadd9  
                                            1/2   
|----------------------------------------|---------------------------------------| 
|----------------------------------------|-------------------------------------8-|
|---------------------------------0--2---|-2b-2br-----(2)-0-0----2--------/9-----|
|-----------------------------0h2--------|---------------------------------------|
|----------------------------------------|---------------------------------------|
|----------------------------------------|---------------------------------------|
|
|----------------------------------------|-0------0------------------------------| 
|-0-----0-----------3------3--0----------|-1----1---3-------0--0h1--------1------|
|---0--------0--------0----------2--0----|----0-----------0---------2------------|
|-----0--------0--------0-----2----------|-------------0--------------2----------|
|----------------2--2--------------------|-3--------2----------0------------0--2-|
|-3--------------------------------------|---------------------------------------|
 everything I have in this world    and   all that I'll ever be



     C        G              Em   F            C        G         Em    F 
    1   1              1                                           1
|------------------------------------------|--------------------------------------| 
|-10b--10br--(10)-8-8--10b-----------------|-1-----1--0---------------------------|
|-----------------------------------0--2---|-----0----------0--0--2br---(2)-------|
|-------------------------------0h2--------|---2---------0--------------------4/--|
|------------------------------------------|--------------------------------------|
|------------------------------------------|--------------------------------------|
|
|------------------------------------------|--------------------------------------| 
|-1-----1--0--------0----------------------|-1-----1--0---------------------------|
|-----0----------0-----0---2--2------------|-----0-------------0--0---2--2--------|
|---2---------0----------------------------|---2---------0--0-----------------4/--|
|-3--------2------------------------0--2---|-3--------2---------------------0-----|
|-------------------3--0---1--1------------|-------------------3--0---1--1--------|

It could all fall down around me, Just as long as I have you right here by me

INTERLUDE:

Em9 

|---------------------------------------|--------------------------------------| 
|---------------------------------------|--------------------------------------|
|-0-------------------------------------|--------------------------------------|
|---2-----------------------------------|--------------------------------------|
|---------------------------------------|--------------------------------------|
|---------------------------------------|--------------------------------------|
|
|---------------------------------------|--------------------------------------| 
|------5------7-------------------------|------5------7------------------------|
|---------5------7------12--------------|---------5------7------12--------0----|
|-5-----------------7-------------5-----|-5-----------------7----------2-------|
|---7--------------------------7--------|---7-----------------------3----------|
|-0-------------------------8-----------|-0------------------------------------|


VERSE:

G              Cmaj7         G       Cmaj7

 
|-------------------------------------|---------------------------------0---| 
|-------------------------------------|-----------------------------0h1-----|
|-------------------------------------|-------------------------------------|
|-------------------------------------|-------------------------------------|
|-------------------------------------|-------------------------------------|
|-------------------------------------|-------------------------------------|
|
|-------------------------------------|-------------------------------------|
|-0------0-----------0------0---------|-0------0-----------0------0---------|
|----0-------0----------0-------0-----|----0-------0----------0-------0-----|
|------0--------0---------2-------2---|------0--------0---------2-------2---|
|-----------------0--3----------------|-----------------0--3----------------|
|-3---------------------------------0-|-3---------------------------------0-|
  I cant take another day without you                              'Cause baby

         Amadd9                            Cmaj7
                                                          1/2
|--------------------------------------|--------------------------------------| 
|--0-----------------------------------|--------------------------------------|
|--------------------------------------|--------------------------------------|
|--------------------------------------|--------------5--7b7br--(7)-5---5-----|
|--------------------------------------|-----------/7-----------------7-------|
|--------------------------------------|--------------------------------------|
|
|--------------------------------------|--------------------------------------| 
|--0------0h1---------0------0h1-------|-0-------0h1--------0--------0h1------|
|-------2------2---------2-------2-----|----0--------0---------0---------0----|
|-----2----------2---------2-------2---|-------2-------2----------2--------2--|
|--0---------------0--0--------------0-|-3---------------3--3-----------------|
|--------------------------------------|-------------------------------------0|
  I could never make it on my own

  G                 Cmaj7                G      Cmaj7  
|-------------------------------------|-------------------------------------| 
|-------------------------------------|-------------------------------------|
|-------------------------------------|-----------------------12------------|
|(5)----------------------------------|-------------12---14-----------------|
|-------------------------------------|-------------------------------------|
|-------------------------------------|-------------------------------------|
|
|-------------------------------------|-------------------------------------|
|-0------0-----------0------0---------|-0------0-----------0------0---------|
|----0-------0----------0-------0-----|----0-------0----------0-------0-----|
|------0--------0---------2-------2---|------0--------0---------2-------2---|
|-----------------0--3----------------|-----------------0--3----------------|
|-3---------------------------------0-|-3---------------------------------0-|
  I've been waiting so long just to hold you

        Amadd9                            Cmaj7
                                                                      1
|--------------------------------------|-----------------------------------------| 
|--0-----------------------------------|-----------------------------------------|
|--------------------------------------|-----------------------------------------|
|--------------------------------------|----------------5---------5--7br-(7)--5--|
|--------------------------------------|-----------5--7-------7------------------|
|--------------------------------------|-----------------------------------------|
|
|--------------------------------------|-----------------------------------------| 
|--0------0h1---------0------0h1-------|-0-------0h1--------0--------0h1---------|
|-------2------2---------2-------2-----|----0--------0---------0---------0-------|
|-----2----------2---------2-------2---|-------2-------2----------2---------2----|
|--0---------------0--0--------------0-|-3---------------3--3--------------------|
|--------------------------------------|----------------------------------------0| 
  And to be back in your arms where I belong


PRE-CHORUS:

 Amadd9                                  Cmaj9
|--------7------8----------7------8-----|-------7------10------------7-------8------| 
|-----8----8------8------8---8------8---|----8-----8-------8------8------8-----8----|
|--9---------9------9-9--------9------9-|-9----------9-------9--9----------9-----9--|
|---------------------------------------|-------------------------------------------|
|---------------------------------------|-------------------------------------------|
|---------------------------------------|-------------------------------------------|
|
|---------------------------------------|-------------------------------------------| 
|--0------0h1---------0------0h1--------|-0--------0h1----------0--------0h1--------|
|----2---------2---------2-------2------|----0----------0----------0---------0------|
|-------2--------2---------2-------2----|-------2----------2----------2--------2----|
|--0---------------0--0--------------0--|-3------------------3--3----------------0--|
|---------------------------------------|-------------------------------------------|
|                                               1/2                       1/4
|---------------------------------------|-------------------------------------------| 
|---------------------------------------|-------------------------------------------|
|---------------------------------------|-------------------------------------------|
|---------------------------------------|-------7br-(7)h5----5-------------5b-------|
|---------------------------------------|-----------------7-------7--5-7------7-5-7-|
|---------------------------------------|-------------------------------------------|
 I'm sorry I can't always find the words to say                                But



 Amadd9                                  Cmaj9
|--------7------8----------7------8-----|-------7-----10------------7------10------| 
|-----8----8------8------8---8------8---|----8----8------8-------8----8--------8---|
|--9---------9------9-9--------9------9-|-9---------9------9--9----------9-------9-|
|---------------------------------------|------------------------------------------|
|---------------------------------------|------------------------------------------|
|---------------------------------------|------------------------------------------|
|
|---------------------------------------|----------------------------------------0-| 
|--0------0h1---------0------0h1--------|-0-------0h1---------0-------3------------|
|----2---------2---------2-------2------|----0---------0---------0-------0-----1---|
|-------2--------2---------2-------2----|-------2--------2----------2-------2------|
|--0---------------0--0--------------0--|-3----------------3--3--------------------|
|---------------------------------------|------------------------------------------|
| 
|---------------------------------------|------------------------------------------| 
|---------------------------------------|------------------------------------------|
|---------------------------------------|------------------------------------------|
|---------------------------------------|------------------------------------------|
|-(7)-----------------------------------|------------------------------------------|
|---------------------------------------|------------------------------------------|
  everything I've ever known gets swept away Inside of your love




CHORUS:

    G             G/B                       C        G/B       Amadd9  
                                           1/2       1/2                     h
|----------------------------------------|-------------------------------------------| 
|----------------------------------------|--------------------------------------8-10-|
|----------------------------------------|----------------------------------7/9------|
|--------------------------------5--7----|-7b-------7br-(7)-5--5-(5)h7--7------------|
|----------------------------5h7---------|-------------------------------------------|
|----------------------------------------|-------------------------------------------|
|
|----------------------------------------|-0------0----------------------------------| 
|-0-----0-----------3------3--0----------|-1----1---3--------0--0h1--------1---------|
|---0--------0--------0----------2--0----|----0-----------0----------2---------------|
|-----0--------0--------0-----2----------|-------------0---------------2-------------|
|----------------2--2--------------------|-3--------2-----------0------------0--2----|
|-3--------------------------------------|-------------------------------------------|
 everything I have in this world    and   all that I'll ever be



     C        G              Em   F            C        G         Em    F 
  1    1/2     1        1/2                                       1
|------------------------------------------|--------------------------------------| 
|-10b--10br--(10)-8-8--10b-----------------|-1-----1--0---------------------------|
|-----------------------------------0--2---|-----0----------0--0--2br---(2)-------|
|-------------------------------0h2--------|---2---------0--------------------4/--|
|------------------------------------------|--------------------------------------|
|------------------------------------------|--------------------------------------|
|
|------------------------------------------|--------------------------------------| 
|-1-----1--0--------0----------------------|-1-----1--0---------------------------|
|-----0----------0-----0---2--2------------|-----0-------------0--0---2--2--------|
|---2---------0----------------------------|---2---------0--0-----------------4/--|
|-3--------2------------------------0--2---|-3--------2---------------------0-----|
|-------------------3--0---1--1------------|-------------------3--0---1--1--------|

It could all fall down around me, Just as long as I have you right here by me


INTERLUDE:

  Em9 
|---------------------------------------|--------------------------------------| 
|---------------------------------------|--------------------------------------|
|-0-------------------------------------|-9-------11-----12--------10----------|
|---2-----------------------------------|--------------------------------------|
|---------------------------------------|--------------------------------------|
|---------------------------------------|--------------------------------------|
|
|---------------------------------------|--------------------------------------| 
|------5------7-------------------------|------5------7------------------------|
|---------5------7------12--------------|---------5------7------12--------0----|
|-5-----------------7-------------5-----|-5-----------------7----------2-------|
|---7--------------------------7--------|---7-----------------------3----------|
|-0-------------------------8-----------|-0------------------------------------|



BRIDGE:

  Esus2/B             C                   Esus2/B             C
|--------------------------------------|--------------------------------------| 
|-12---------------------13----12\8----|-7-------8-------7--------------------|
|--------------------------------------|---------------------9----------------|
|--------------------------------------|--------------------------------------|
|--------------------------------------|--------------------------------------|
|--------------------------------------|--------------------------------------|
| 
|-0----0----0---0-----0----0-----0--0--|-0----0----0---0-----0----0-----0--0--| 
|-0----0----0---0-----1----1-----1--1--|-0----0----0---0-----1----1-----1--1--|
|-0----0----0---0-----0----0-----0--0--|-0----0----0---0-----0----0-----0--0--|
|-2----2----2---2-----2----2-----2--2--|-2----2----2---2-----2----2-----2--2--|
|-2----2----2---2-----3----3-----3--3--|-2----2----2---2-----3----3-----3--3--|
|-0----0----0---0----------------------|-0----0----0---0----------------------|

As the days roll on I see              time is standing still for me  when you're

                                            
                                             PRE-CHORUS:

       Amadd9                                     Em9                C  
|----------------------------------------------|--------------------------------------| 
|----------------------------------------------|12----------------------13---12-\--8--|
|-9-----------10----------9--------9-/13-------|--------------------------------------|
|----------------------------------------------|--------------------------------------|
|----------------------------------------------|--------------------------------------|
|----------------------------------------------|--------------------------------------|
|
|----------------------------------------------|-0----0----0---0-----0----0-----0--0--| 
|-0--------0--1--------1--0--------0--1------0-|-0----0----0---0-----1----1-----1--1--|
|-------2-----------2-----------2---------0----|-0----0----0---0-----0----0-----0--0--|
|----2-----------2-----------2----------2------|-2----2----2---2-----2----2-----2--2--|
|-0-----------0-----------0-----------0--------|-2----2----2---2-----3----3-----3--3--|
|----------------------------------------------|-0----0----0---0----------------------|
          not          here                 I'm sorry I can't always find the words



  Em9                 C                  Amadd9              
|--------------------------------------|------------------------------------------------|
|-7------8--------------------------8--|------------------------------------------------|
|---------------------9----------------|-----------------------9------------------------|
|------------------------9----10-------|-9---------10-----------------------------------|
|--------------------------------------|------------------------------------------------|
|--------------------------------------|------------------------------------------------|
|
|-0----0----0---0-----0----0-----0--0--|------------------------------------------------| 
|-0----0----0---0-----1----1-----1--1--|-0------0--1--------1--0--------0---1--------1--|
|-0----0----0---0-----0----0-----0--0--|------2----------2-----------2------------2-----|
|-2----2----2---2-----2----2-----2--2--|----2---------2-----------2------------2--------|
|-2----2----2---2-----3----3-----3--3--|-0---------0-----------0------------0-----------|
|-0----0----0---0----------------------|------------------------------------------------|
    to say                              Everything Ive ever known gets swept



  Cmaj7   C       Cmaj7           Cadd9              G         G/B
|------------------------------------------------||--------------------------------------| 
|------------------------------------------------||-15-----------------------------------|
|-9----------13----------12----------13----------||--------------------------------------|
|------------------------------------------------||--------------------------------------|
|------------------------------------------------||--------------------------------------|
|------------------------------------------------||--------------------------------------|
|                     1/2  1/2   1/2 1 
|------------------------------------------------||--------------------------------------| 
|------------------------------------------------||----------------------------8--10-----|
|------------------------------------------------||-----------------------7h9------------|
|----------5--------5-7b----7b---7b-7b(7)--5-----||--5-----------------------------------|
|----5---7-------7-----------------------------7-||--------------------------------------|
|------------------------------------------------||--------------------------------------|
|
|------------------------------------------------||--------------------------------------| 
|-0--------0--1--------1--0--------3----3---1----||--0-----0-----------3------3--0-------|
|-------0-----------0-----------0----------------||----0--------0--------0----------2--0-|
|----2-----------2-----------2-------------------||------0--------0--------0-----2-------|
|-3-----------3-----------3----------------------||-----------------2--2-----------------|
|------------------------------------------------||--3-----------------------------------|
  a way       Inside of your love                  And everything I have in this world and 



CHORUS: 2x
  
  C       G/B              Amadd9           C            G      Em      F
                                                        1  
  1    1/2     1        1/2                  1/2        |                1/2
|------------------------------------------|------------------------------------------------| 
|-10b--10br--(10)-8-8--(8)\-----------8----|-8b(8)--8---10br(10)--8--8---10br(10)-----------|
|-------------------------------/9---------|-------------------------------------------0--0-|
|------------------------------------------|---------------------------------------0h2------|
|------------------------------------------|------------------------------------------------|
|------------------------------------------|------------------------------------------------|
| 
|-0------0---------------------------------|-0---------0------------------------------------| 
|-1----1---3-------0--0h1--------1---------|-1------1-----3-------0--0h1---------1----------|
|----0-----------0---------2---------------|-----0--------------0---------2-----------------|
|-------------0--------------2-------------|-----------------0---------------2--------------|
|-3--------2----------0------------0--2----|-3------------2----------0-------------0--2-----|
|------------------------------------------|------------------------------------------------|
 all   that   I'll   ever be       It could all   fall   down   around   me   just as



 C        G         Em    F        Em9 
                            1/2
|--------------------------------------|--------------------------------------| 
|-1--------1--0------------------------|--------------------------------------|
|-------0------------0--0---2br(2)-----|--0-----------------------------------|
|----2-----------0-------------------4-|-----2--------------------------------|
|--------------------------------------|--------------------------------------|
|--------------------------------------|--------------------------------------|
|
|--------------------------------------|--------------------------------------|
|-1-----1--0---------------------------|--------------------------------------|
|-----0-------------0--0---2--2--------|--------------------------------------|
|---2---------0--0-----------------4/--|--------------------------------------|
|-3--------2---------------------0-----|--------------------------------------|  
|-------------------3--0---1--1--------|--------------------------------------|

long as I   have you  right   here by me                      and



    G             G/B   C        G/B       Amadd9
                                           1/2   1/2      
|----------------------------------------|-------------------------------------------| 
|----------------------------------------|-----------------------------------8--10---|
|----------------------------------0--2--|-2b---2b(2)---0--0--(0)h2-----7/9----------|
|-----------------------------0h2--------|-------------------------------------------|
|----------------------------------------|-------------------------------------------|
|----------------------------------------|-------------------------------------------|
|
|----------------------------------------|-0------0----------------------------------| 
|-0-----0-----------3------3--0----------|-1----1---3--------0--0h1--------1---------|
|---0--------0--------0----------2--0----|----0-----------0----------2---------------|
|-----0--------0--------0-----2----------|-------------0---------------2-------------|
|----------------2--2--------------------|-3--------2-----------0------------0--2----|
|-3--------------------------------------|-------------------------------------------|

  everything I have in this world and all that I'll ever be         It could




  C     G            Em  F        C         G      Em         F     G
|------------------------------------------|------------------------------------------|----|| 
|-10b--10br--(10)-8-8--10b-----------------|-1-----1--0-------------------------------|----||
|-----------------------------------0--2---|-----0----------0--0--2br---(2)-----------|----||
|-------------------------------0h2--------|---2---------0----------------------------|----||
|------------------------------------------|------------------------------------------|----||
|------------------------------------------|------------------------------------------|----||
|
|------------------------------------------|------------------------------------------|----|| 
|------------------------------------------|-1--------1--0----------------------------|-0--||
|------------------------------------------|-------0-----------0--0----0----2--2------|-0--||
|------------------------------------------|----2-----------0-----------------------4-|----||
|------------------------------------------|-3-----------2-----------------------0----|----||
|------------------------------------------|----------------------3----0----1--1------|-3--||
  all fall down around me    Just as long as I have you right here by me

 Comments (click here to add a non-facebook comment)
Home | FAQs | Privacy | Terms | Contact
Top 100 Tab Sites