Give Kudos?
Are you sure you want to give kudos to EMRLDEYZS?

Add To Songbook?
Are you sure you want to add this song to your songbook?


3,420 bands | 16,457 songs
Search: Register FREE! | Login
Browse Songs:
Browse Bands:
Tool Panel
Discuss This Song

1 2 3 4 5



3 Doors Down - Changes(tab Incl) (Chord)
Album: Away From The Sun (2002)
Submitter: EMRLDEYZS (95) on 11/25/05
Month Views: 9 | Total Views: 2,903
Moderator: EMRLDEYZS | Report This Song?
Song Tools

Comment

Songbook

Kudos

Show Chords

Print

TUNING:  D A D G B D


INTRO: Dm   C   Dm   C   Dm   C   F5   E5 2x

VERSE:

                    Dm           C      
I'm not supposed to be scared of anything
      Dm                 C
But I don't know where I am
                    Dm           C
I wish that I could move but I'm exhausted
    F5          E5
And nobody understands
    Dm             C      
I'm tryin' hard to breathe now
            Dm           C
But there's no air in my lungs
        Dm              C
There's no one here to talk to
        F5             E5        Dm 
And the pain inside is making me numb

PRE-CHORUS:

         Dsus2      Dm     Dsus2
I try to hold this, under control
Dm         Dsus2           Dm     Dsus2
They can't help me, 'cause no one knows



CHORUS:

Dm      Am            Gm       C
Now I'm going through changes, changes
Dm    Am           Gm      C
God I feel so frustrated lately
Dm     Am        Gm   C 
When I get suffocated save me
Dm      Am            Gm       C         Dm  C/D  D  C/D   Dsus4 D      
Now I'm going through changes, changes


VERSE:

Dm                   C             Dm                 C
I'm feelin' weak and weary walkin' through this world alone
             Dm         C           F5             E5
Everything I say, every word of it, cuts me to the bone
Dm                    C             Dm             C
I've got something to say but now I got nowhere to turn
Dm                      C                 F5      E5            Dm
It feels like I've been buried underneath all the weight of the world


PRE-CHORUS:

         Dsus2      Dm     Dsus2
I try to hold this, under control
Dm         Dsus2           Dm     Dsus2
They can't help me, 'cause no one knows

CHORUS:

Dm      Am            Gm       C
Now I'm going through changes, changes
Dm    Am           Gm      C
God I feel so frustrated lately
Dm     Am        Gm   C 
When I get suffocated save me
Dm      Am            Gm       C      Dm  C/D  D   C/D   Bb  C  D  Bb  C  D 
Now I'm going through changes, changes



BRIDGE:

Fsus2                  Bbsus2
I'm blind and shaking, Bound and breaking
Fsus2                    G5
I hope I make it through all these changes 


Dm      Am            Gm       C
Now I'm going through changes, changes
Dm    Am           Gm    C
God I feel so frustrated lately
Dm     Am        Gm   C 
When I get suffocated save me
Dm      Am             Gm         C
Now I'm falling apart, now I feel it

Dm      Am            Gm       C
But I'm going through changes, changes
Dm    Am          Gm      C
God I feel so frustrated lately
Dm    Am        Gm   C 
And I get suffocated I hate this
Dm      Am            Gm       C
But I'm going through changes, changes

OUTRO:  Dm  Dsus2    D   C/D   Dsus2  D

FADE

**********************************************************

INTRO/ VERSE:

|-----0-------------------|----0-------------------------|
|----10----------8--------|------10------8----8-10-11-8--|
|----------10------9------|---------10-----9-------------|
|--------------0-----10-8s|--7---------0-----------------|
|--0----------------------|------------------------------|
|--0----------------------|------------------------------|


|---------------------------|-------------------------|
|-8s10------------8---------|-------------------------|
|-------------------9-------|-------------------------|
|---------------------10-8\-|-----3---------2---------|
|---------------------------|---3---3-----2---2s3s2-0-|
|---------------------------|-3-------3-2-----2s3s2-0-|


PRE-CHORUS:
         
  
|----0--0--0--0--(0)----|----0--0--0--0--(0)--0-----|
|---10-10-10-10-(10)----|---10-10-10-10-(10)--------|
|---10-10-10--9--(9)----|---10-10-10--9--(9)----9-7-|
|-0---------------------|-0-------------------------|
|-0---------------------|-0-------------------------|
|-0---------------------|-0-------------------------|

|----0--0--0--0--(0)----|----0--0--0--0--(0)----------|
|---10-10-10-10-(10)----|---10-10-10-10-(10)----------|
|---10-10-10--9--(9)----|---10-10-10--9--(9)----------|
|-0---------------------|-0---------------------------|
|-0---------------------|-0-------------------0-0-0-0-|
|-0---------------------|-0-------------------0-0-0-0-|


CHORUS 1:
                                              4x  
|------------------------|----------------------|
|------------------------|----------------------|
|------------------------|----------------------|
|------------------------|----------------------|
|-0-10-(10)-12-7-8-(8)-5-|-(5)-7-8-10-(10)-12-0-|
|-0-10-(10)-12-7-8-(8)-5-|-(5)-7-8-10-(10)-12-0-|


|-----0--0--0--0--(0)-0-0-0--|----0-0-0-0-(0)-0-0-0--|
|----10-10-10-10-(10)-8-8-8--|----8-8-8-8-(8)-7-7-7--|
|----10-10-10-10-(10)-9-9-9--|----9-9-9-9-(9)-7-7-7--|
|----------------------------|-----------------------|
|----------------------------|-----------------------|
|----------------------------|-----------------------|
                       
         
|----0-0-0-0-(0)-0-0-0---|----0-0-0-0-(0)-0-0-0---|
|----7-7-7-7-(7)-5-5-5---|----8-8-8-8-(8)-7-7-7---|
|----7-7-7-7-(7)-5-5-5---|----7-7-7-7-(7)-7-7-7---|
|------------------------|------------------------|
|------------------------|------------------------|
|------------------------|------------------------|

VERSE & PRE-CHORUS  SAME AS BEFORE

CHORUS 2:
                                               4x  
|------------------------|----------------------|
|------------------------|----------------------|
|------------------------|----------------------|
|------------------------|----------------------|
|-0-10-(10)-12-7-8-(8)-5-|-(5)-7-8-10-(10)-12-0-|
|-0-10-(10)-12-7-8-(8)-5-|-(5)-7-8-10-(10)-12-0-|


|-----0--0--0--0--(0)-0-0-0--|----0-0-0-0-(0)-0-0-0--|----0-0-0-0-(0)-0-0-0---|
|----10-10-10-10-(10)-8-8-8--|----8-8-8-8-(8)-7-7-7--|----7-7-7-7-(7)-5-5-5---|
|----10-10-10-10-(10)-9-9-9--|----9-9-9-9-(9)-7-7-7--|----7-7-7-7-(7)-5-5-5---|
|----------------------------|-----------------------|------------------------|
|----------------------------|-----------------------|------------------------|
|----------------------------|-----------------------|------------------------|
 
|--------------------------|-----------------------------||
|----3-------5-/7-(7)--7\--|----3-------5-/7-(7)--7\-----||
|-/3---5-(5)---/7-(7)--7\--|-/3---5-(5)---/7-(7)--7\-----||
|--------------------------|-----------------------------||
|--------------------------|-----------------------------||
|--------------------------|-----------------------------||



BRIDGE:        
                                                             
|----------|-----------|----------|-----------------------------||
|-5--------|-10--------|-5--------|-----------------------------||
|-5--------|-10--------|-5--------|-----------------------------||
|-5--------|-10--------|-5--------|-5-5-5-5-5-5-5-5-5-5-5-5-5---||
|-3--------|--8--------|-3--------|-5-5-5-5-5-5-5-5-5-5-5-5-5---||
|-3--------|--8--------|-3--------|-5-5-5-5-5-5-5-5-5-5-5-5-5---||

CHORUS:

                                                 8x
|-------------------------|-----------------------|
|-------------------------|-----------------------|
|-------------------------|-----------------------|
|-------------------------|-----------------------|
|--0-10-(10)-12-7-8-(8)-5-|-(5)-7-8-10-(10)-12--0-|
|--0-10-(10)-12-7-8-(8)-5-|-(5)-7-8-10-(10)-12--0-|


OUTRO:

|-----0--0---0--0--||-------0--0--0-0--|-------0-0--0-0--|-------0--0--0-0---|
|----10-10--10-10--||------10-10--7-7--|------/7-7--5-5--|------10-10--7-7---|
|----10-10---9--9--||-------9--9--7-7--|------/7-7--5-5--|-------9--9--7-7---|
|-0----------------||--0---------------|--0--------------|--0----------------|
|-0----------------||--0---------------|--0--------------|--0----------------|
|-0----------------||--0--------- 
 Comments (click here to add a non-facebook comment)
Home | FAQs | Privacy | Terms | Contact
Top 100 Tab Sites