Give Kudos?
Are you sure you want to give kudos to steamwhistle_28?

Add To Songbook?
Are you sure you want to add this song to your songbook?


3,420 bands | 16,457 songs
Search: Register FREE! | Login
Browse Songs:
Browse Bands:
Tool Panel
Discuss This Song

1 2 3 4 5



3 Doors Down - Changes (Tab)
Album: Away From The Sun (2002)
Submitter: steamwhistle_28 (2) on 11/24/05
Month Views: 9 | Total Views: 2,338
Moderator: EMRLDEYZS | Report This Song?
Song Tools

Comment

Songbook

Kudos

Show Chords

Print

Changes- 3 Doors Down

E|-------5---------------------------|
B|----------6------8-----------------|
G|-------------7------9-------9------|
D|---0-------------------10--10------|
A|-------------------------------12--|
E|-----------------------------------|

E|------5------------------------------|
B|---------6------8-----8-10-11-8-10---|
G|--7---------7------9-----------------|
D|-------------------------------------|
A|-------------------------------------|
E|-------------------------------------|

E|-----5-------------------------------------------------------|
B|--------6------8---------------------------------------------|
G|-7---------7------9--------9---------------------------------|
D|---------------------10---10-------------3------------2------|
A|-------------------------------------3-------------2---------|
E|---------------------------------1----------1---0--------0---|
 Comments (click here to add a non-facebook comment)
Home | FAQs | Privacy | Terms | Contact
Top 100 Tab Sites